  0
SECTION
  2
HEADER
  9
$ACADVER
  1
AC1014
  9
$HANDSEED
  5
FFFF
  9
$MEASUREMENT
 70
     1
  0
ENDSEC
  0
SECTION
  2
TABLES
  0
TABLE
  2
VPORT
  5
8
330
0
100
AcDbSymbolTable
 70
     4
  0
VPORT
  5
2E
330
8
100
AcDbSymbolTableRecord
100
AcDbViewportTableRecord
  2
*ACTIVE
 70
     0
 10
0.0
 20
0.0
 11
1.0
 21
1.0
 12
210.0
 22
148.5
 13
0.0
 23
0.0
 14
10.0
 24
10.0
 15
10.0
 25
10.0
 16
0.0
 26
0.0
 36
1.0
 17
0.0
 27
0.0
 37
0.0
 40
341.0
 41
1.24
 42
50.0
 43
0.0
 44
0.0
 50
0.0
 51
0.0
 71
     0
 72
   100
 73
     1
 74
     3
 75
     0
 76
     0
 77
     0
 78
     0
  0
ENDTAB
  0
TABLE
  2
LTYPE
  5
5
330
0
100
AcDbSymbolTable
 70
     1
  0
LTYPE
  5
14
330
5
100
AcDbSymbolTableRecord
100
AcDbLinetypeTableRecord
  2
BYBLOCK
 70
     0
  3

 72
    65
 73
     0
 40
0.0
  0
LTYPE
  5
15
330
5
100
AcDbSymbolTableRecord
100
AcDbLinetypeTableRecord
  2
BYLAYER
 70
     0
  3

 72
    65
 73
     0
 40
0.0
  0
LTYPE
  5
16
330
5
100
AcDbSymbolTableRecord
100
AcDbLinetypeTableRecord
  2
CONTINUOUS
 70
     0
  3
Solid line
 72
    65
 73
     0
 40
0.0
  0
ENDTAB
  0
TABLE
  2
LAYER
  5
2
100
AcDbSymbolTable
 70
2
  0
LAYER
  5
50
100
AcDbSymbolTableRecord
100
AcDbLayerTableRecord
  2
0
 70
0
  6
CONTINUOUS
  0
LAYER
  5
51
100
AcDbSymbolTableRecord
100
AcDbLayerTableRecord
  2
Layer_1
 70
0
  6
CONTINUOUS
  0
ENDTAB
  0
TABLE
  2
STYLE
  5
3
330
0
100
AcDbSymbolTable
 70
     1
  0
STYLE
  5
11
330
3
100
AcDbSymbolTableRecord
100
AcDbTextStyleTableRecord
  2
STANDARD
 70
     0
 40
0.0
 41
1.0
 50
0.0
 71
     0
 42
2.5
  3
txt
  4

  0
ENDTAB
  0
TABLE
  2
VIEW
  5
6
330
0
100
AcDbSymbolTable
 70
     0
  0
ENDTAB
  0
TABLE
  2
UCS
  5
7
330
0
100
AcDbSymbolTable
 70
     0
  0
ENDTAB
  0
TABLE
  2
APPID
  5
9
330
0
100
AcDbSymbolTable
 70
     2
  0
APPID
  5
12
330
9
100
AcDbSymbolTableRecord
100
AcDbRegAppTableRecord
  2
ACAD
 70
     0
  0
ENDTAB
  0
TABLE
  2
DIMSTYLE
  5
A
330
0
100
AcDbSymbolTable
 70
     1
  0
DIMSTYLE
105
27
330
A
100
AcDbSymbolTableRecord
100
AcDbDimStyleTableRecord
  2
ISO-25
 70
     0
  3

  4

  5

  6

  7

 40
1.0
 41
2.5
 42
0.625
 43
3.75
 44
1.25
 45
0.0
 46
0.0
 47
0.0
 48
0.0
140
2.5
141
2.5
142
0.0
143
0.03937007874016
144
1.0
145
0.0
146
1.0
147
0.625
 71
     0
 72
     0
 73
     0
 74
     0
 75
     0
 76
     0
 77
     1
 78
     8
170
     0
171
     3
172
     1
173
     0
174
     0
175
     0
176
     0
177
     0
178
     0
270
     2
271
     2
272
     2
273
     2
274
     3
340
11
275
     0
280
     0
281
     0
282
     0
283
     0
284
     8
285
     0
286
     0
287
     3
288
     0
  0
ENDTAB
  0
TABLE
  2
BLOCK_RECORD
  5
1
330
0
100
AcDbSymbolTable
 70
     1
  0
BLOCK_RECORD
  5
1F
330
1
100
AcDbSymbolTableRecord
100
AcDbBlockTableRecord
  2
*MODEL_SPACE
  0
BLOCK_RECORD
  5
1B
330
1
100
AcDbSymbolTableRecord
100
AcDbBlockTableRecord
  2
*PAPER_SPACE
  0
ENDTAB
  0
ENDSEC
  0
SECTION
  2
BLOCKS
  0
BLOCK
  5
20
330
1F
100
AcDbEntity
  8
0
100
AcDbBlockBegin
  2
*MODEL_SPACE
 70
     0
 10
0.0
 20
0.0
 30
0.0
  3
*MODEL_SPACE
  1

  0
ENDBLK
  5
21
330
1F
100
AcDbEntity
  8
0
100
AcDbBlockEnd
  0
BLOCK
  5
1C
330
1B
100
AcDbEntity
 67
     1
  8
0
100
AcDbBlockBegin
  2
*PAPER_SPACE
  1

  0
ENDBLK
  5
1D
330
1B
100
AcDbEntity
 67
     1
  8
0
100
AcDbBlockEnd
  0
ENDSEC
  0
SECTION
  2
ENTITIES
  0
LWPOLYLINE
  5
100
100
AcDbEntity
  8
Layer_1
 62
1
100
AcDbPolyline
 90
5
 70
1
 10
0.044646
 20
199.955352
 30
0.0
 10
0.044646
 20
0.045005
 30
0.0
 10
199.954992
 20
0.045005
 30
0.0
 10
199.954992
 20
199.955352
 30
0.0
 10
0.044646
 20
199.955352
 30
0.0
  0
LWPOLYLINE
  5
101
100
AcDbEntity
  8
Layer_1
 62
1
100
AcDbPolyline
 90
33
 70
1
 10
36.708729
 20
175.748181
 30
0.0
 10
37.046123
 20
175.714201
 30
0.0
 10
37.360372
 20
175.616675
 30
0.0
 10
37.644745
 20
175.462336
 30
0.0
 10
37.892507
 20
175.257919
 30
0.0
 10
38.096924
 20
175.010157
 30
0.0
 10
38.251263
 20
174.725784
 30
0.0
 10
38.348790
 20
174.411534
 30
0.0
 10
38.382770
 20
174.074141
 30
0.0
 10
38.348790
 20
173.736747
 30
0.0
 10
38.251263
 20
173.422497
 30
0.0
 10
38.096924
 20
173.138124
 30
0.0
 10
37.892507
 20
172.890362
 30
0.0
 10
37.644745
 20
172.685945
 30
0.0
 10
37.360372
 20
172.531606
 30
0.0
 10
37.046123
 20
172.434080
 30
0.0
 10
36.708729
 20
172.400100
 30
0.0
 10
36.371420
 20
172.434176
 30
0.0
 10
36.057261
 20
172.531765
 30
0.0
 10
35.772982
 20
172.686135
 30
0.0
 10
35.525306
 20
172.890557
 30
0.0
 10
35.320966
 20
173.138299
 30
0.0
 10
35.166689
 20
173.422630
 30
0.0
 10
35.069204
 20
173.736821
 30
0.0
 10
35.035239
 20
174.074141
 30
0.0
 10
35.069204
 20
174.411460
 30
0.0
 10
35.166689
 20
174.725651
 30
0.0
 10
35.320966
 20
175.009983
 30
0.0
 10
35.525306
 20
175.257725
 30
0.0
 10
35.772982
 20
175.462146
 30
0.0
 10
36.057261
 20
175.616516
 30
0.0
 10
36.371420
 20
175.714105
 30
0.0
 10
36.708729
 20
175.748181
 30
0.0
  0
LWPOLYLINE
  5
102
100
AcDbEntity
  8
Layer_1
 62
1
100
AcDbPolyline
 90
33
 70
1
 10
112.009699
 20
175.748181
 30
0.0
 10
112.347093
 20
175.714201
 30
0.0
 10
112.661342
 20
175.616675
 30
0.0
 10
112.945714
 20
175.462336
 30
0.0
 10
113.193477
 20
175.257919
 30
0.0
 10
113.397894
 20
175.010157
 30
0.0
 10
113.552232
 20
174.725784
 30
0.0
 10
113.649760
 20
174.411534
 30
0.0
 10
113.683740
 20
174.074141
 30
0.0
 10
113.649760
 20
173.736747
 30
0.0
 10
113.552232
 20
173.422497
 30
0.0
 10
113.397894
 20
173.138124
 30
0.0
 10
113.193477
 20
172.890362
 30
0.0
 10
112.945714
 20
172.685945
 30
0.0
 10
112.661342
 20
172.531606
 30
0.0
 10
112.347093
 20
172.434080
 30
0.0
 10
112.009699
 20
172.400100
 30
0.0
 10
111.672390
 20
172.434176
 30
0.0
 10
111.358231
 20
172.531765
 30
0.0
 10
111.073952
 20
172.686135
 30
0.0
 10
110.826276
 20
172.890557
 30
0.0
 10
110.621936
 20
173.138299
 30
0.0
 10
110.467659
 20
173.422630
 30
0.0
 10
110.370174
 20
173.736821
 30
0.0
 10
110.336209
 20
174.074141
 30
0.0
 10
110.370174
 20
174.411460
 30
0.0
 10
110.467659
 20
174.725651
 30
0.0
 10
110.621936
 20
175.009983
 30
0.0
 10
110.826276
 20
175.257725
 30
0.0
 10
111.073952
 20
175.462146
 30
0.0
 10
111.358231
 20
175.616516
 30
0.0
 10
111.672390
 20
175.714105
 30
0.0
 10
112.009699
 20
175.748181
 30
0.0
  0
LWPOLYLINE
  5
103
100
AcDbEntity
  8
Layer_1
 62
1
100
AcDbPolyline
 90
5
 70
1
 10
142.974768
 20
163.538213
 30
0.0
 10
164.957783
 20
163.538213
 30
0.0
 10
164.957783
 20
134.155682
 30
0.0
 10
142.974768
 20
134.155682
 30
0.0
 10
142.974768
 20
163.538213
 30
0.0
  0
LWPOLYLINE
  5
104
100
AcDbEntity
  8
Layer_1
 62
1
100
AcDbPolyline
 90
37
 70
1
 10
38.610421
 20
163.534911
 30
0.0
 10
110.108557
 20
163.534911
 30
0.0
 10
110.347678
 20
163.510950
 30
0.0
 10
110.570112
 20
163.442203
 30
0.0
 10
110.771178
 20
163.333350
 30
0.0
 10
110.946187
 20
163.189075
 30
0.0
 10
111.090462
 20
163.014067
 30
0.0
 10
111.199315
 20
162.813000
 30
0.0
 10
111.268061
 20
162.590567
 30
0.0
 10
111.292022
 20
162.351445
 30
0.0
 10
111.292022
 20
137.812994
 30
0.0
 10
111.268061
 20
137.573850
 30
0.0
 10
111.199315
 20
137.351354
 30
0.0
 10
111.090462
 20
137.150200
 30
0.0
 10
110.946187
 20
136.975087
 30
0.0
 10
110.771178
 20
136.830714
 30
0.0
 10
110.570112
 20
136.721773
 30
0.0
 10
110.347678
 20
136.652964
 30
0.0
 10
110.108557
 20
136.628976
 30
0.0
 10
38.610421
 20
136.628976
 30
0.0
 10
38.371278
 20
136.652964
 30
0.0
 10
38.148779
 20
136.721773
 30
0.0
 10
37.947628
 20
136.830714
 30
0.0
 10
37.772515
 20
136.975087
 30
0.0
 10
37.628141
 20
137.150200
 30
0.0
 10
37.519201
 20
137.351354
 30
0.0
 10
37.450392
 20
137.573850
 30
0.0
 10
37.426403
 20
137.812994
 30
0.0
 10
37.426403
 20
162.351445
 30
0.0
 10
37.450392
 20
162.590567
 30
0.0
 10
37.519201
 20
162.813000
 30
0.0
 10
37.628141
 20
163.014067
 30
0.0
 10
37.772515
 20
163.189075
 30
0.0
 10
37.947628
 20
163.333350
 30
0.0
 10
38.148779
 20
163.442203
 30
0.0
 10
38.371278
 20
163.510950
 30
0.0
 10
38.610421
 20
163.534911
 30
0.0
  0
LWPOLYLINE
  5
105
100
AcDbEntity
  8
Layer_1
 62
1
100
AcDbPolyline
 90
98
 70
1
 10
52.210558
 20
129.352398
 30
0.0
 10
53.616773
 20
129.210578
 30
0.0
 10
54.926512
 20
128.803952
 30
0.0
 10
56.111724
 20
128.160579
 30
0.0
 10
57.144347
 20
127.308516
 30
0.0
 10
57.996328
 20
126.275823
 30
0.0
 10
58.639608
 20
125.090560
 30
0.0
 10
59.046133
 20
123.780789
 30
0.0
 10
59.187839
 20
122.374563
 30
0.0
 10
59.086188
 20
121.192481
 30
0.0
 10
58.793784
 20
120.068480
 30
0.0
 10
58.325492
 20
119.021487
 30
0.0
 10
57.696196
 20
118.070423
 30
0.0
 10
56.920765
 20
117.234219
 30
0.0
 10
56.014072
 20
116.531793
 30
0.0
 10
54.990994
 20
115.982075
 30
0.0
 10
53.866407
 20
115.603984
 30
0.0
 10
53.870329
 20
115.575407
 30
0.0
 10
53.873773
 20
115.546775
 30
0.0
 10
53.876708
 20
115.518090
 30
0.0
 10
53.879248
 20
115.489360
 30
0.0
 10
53.881223
 20
115.460593
 30
0.0
 10
53.882634
 20
115.431795
 30
0.0
 10
53.883481
 20
115.402972
 30
0.0
 10
53.884045
 20
115.374129
 30
0.0
 10
53.883481
 20
115.345218
 30
0.0
 10
53.882634
 20
115.316324
 30
0.0
 10
53.881223
 20
115.287455
 30
0.0
 10
53.879248
 20
115.258621
 30
0.0
 10
53.876708
 20
115.229820
 30
0.0
 10
53.873744
 20
115.201067
 30
0.0
 10
53.870301
 20
115.172365
 30
0.0
 10
53.866350
 20
115.143720
 30
0.0
 10
54.990802
 20
114.765688
 30
0.0
 10
56.013776
 20
114.216066
 30
0.0
 10
56.920398
 20
113.513770
 30
0.0
 10
57.695798
 20
112.677715
 30
0.0
 10
58.325108
 20
111.726818
 30
0.0
 10
58.793453
 20
110.679997
 30
0.0
 10
59.085971
 20
109.556168
 30
0.0
 10
59.187783
 20
108.374247
 30
0.0
 10
59.046076
 20
106.968021
 30
0.0
 10
58.639552
 20
105.658250
 30
0.0
 10
57.996272
 20
104.472988
 30
0.0
 10
57.144291
 20
103.440294
 30
0.0
 10
56.111668
 20
102.588231
 30
0.0
 10
54.926456
 20
101.944858
 30
0.0
 10
53.616716
 20
101.538232
 30
0.0
 10
52.210502
 20
101.396413
 30
0.0
 10
50.804202
 20
101.538128
 30
0.0
 10
49.494369
 20
101.944686
 30
0.0
 10
48.309067
 20
102.588028
 30
0.0
 10
47.276354
 20
103.440088
 30
0.0
 10
46.424294
 20
104.472804
 30
0.0
 10
45.780954
 20
105.658112
 30
0.0
 10
45.374391
 20
106.967948
 30
0.0
 10
45.232667
 20
108.374247
 30
0.0
 10
45.334318
 20
109.556329
 30
0.0
 10
45.626726
 20
110.680330
 30
0.0
 10
46.095014
 20
111.727324
 30
0.0
 10
46.724310
 20
112.678384
 30
0.0
 10
47.499744
 20
113.514589
 30
0.0
 10
48.406434
 20
114.217015
 30
0.0
 10
49.429512
 20
114.766733
 30
0.0
 10
50.554100
 20
115.144823
 30
0.0
 10
50.550177
 20
115.173330
 30
0.0
 10
50.546734
 20
115.201897
 30
0.0
 10
50.543799
 20
115.230511
 30
0.0
 10
50.541259
 20
115.259174
 30
0.0
 10
50.539283
 20
115.287870
 30
0.0
 10
50.537872
 20
115.316600
 30
0.0
 10
50.537025
 20
115.345356
 30
0.0
 10
50.536461
 20
115.374129
 30
0.0
 10
50.537025
 20
115.403113
 30
0.0
 10
50.538154
 20
115.432080
 30
0.0
 10
50.539565
 20
115.461016
 30
0.0
 10
50.541541
 20
115.489924
 30
0.0
 10
50.544081
 20
115.518790
 30
0.0
 10
50.547101
 20
115.547611
 30
0.0
 10
50.550628
 20
115.576377
 30
0.0
 10
50.554664
 20
115.605088
 30
0.0
 10
49.430127
 20
115.983051
 30
0.0
 10
48.407069
 20
116.532628
 30
0.0
 10
47.500362
 20
117.234902
 30
0.0
 10
46.724880
 20
118.070954
 30
0.0
 10
46.095499
 20
119.021862
 30
0.0
 10
45.627090
 20
120.068715
 30
0.0
 10
45.334527
 20
121.192588
 30
0.0
 10
45.232681
 20
122.374563
 30
0.0
 10
45.374405
 20
123.780863
 30
0.0
 10
45.780968
 20
125.090698
 30
0.0
 10
46.424308
 20
126.276006
 30
0.0
 10
47.276368
 20
127.308722
 30
0.0
 10
48.309081
 20
128.160782
 30
0.0
 10
49.494384
 20
128.804125
 30
0.0
 10
50.804216
 20
129.210683
 30
0.0
 10
52.210516
 20
129.352398
 30
0.0
 10
52.210558
 20
129.352398
 30
0.0
  0
LWPOLYLINE
  5
106
100
AcDbEntity
  8
Layer_1
 62
1
100
AcDbPolyline
 90
98
 70
1
 10
96.208009
 20
129.352398
 30
0.0
 10
97.614308
 20
129.210674
 30
0.0
 10
98.924141
 20
128.804110
 30
0.0
 10
100.109443
 20
128.160771
 30
0.0
 10
101.142157
 20
127.308711
 30
0.0
 10
101.994216
 20
126.275998
 30
0.0
 10
102.637556
 20
125.090695
 30
0.0
 10
103.044120
 20
123.780863
 30
0.0
 10
103.185843
 20
122.374563
 30
0.0
 10
103.084193
 20
121.192481
 30
0.0
 10
102.791788
 20
120.068480
 30
0.0
 10
102.323496
 20
119.021487
 30
0.0
 10
101.694200
 20
118.070423
 30
0.0
 10
100.918769
 20
117.234219
 30
0.0
 10
100.012077
 20
116.531793
 30
0.0
 10
98.988999
 20
115.982075
 30
0.0
 10
97.864411
 20
115.603984
 30
0.0
 10
97.868362
 20
115.575407
 30
0.0
 10
97.871805
 20
115.546775
 30
0.0
 10
97.874740
 20
115.518090
 30
0.0
 10
97.877280
 20
115.489360
 30
0.0
 10
97.879256
 20
115.460593
 30
0.0
 10
97.880667
 20
115.431795
 30
0.0
 10
97.881513
 20
115.402972
 30
0.0
 10
97.882078
 20
115.374129
 30
0.0
 10
97.881513
 20
115.345218
 30
0.0
 10
97.880667
 20
115.316324
 30
0.0
 10
97.879256
 20
115.287455
 30
0.0
 10
97.877280
 20
115.258621
 30
0.0
 10
97.874740
 20
115.229820
 30
0.0
 10
97.871777
 20
115.201067
 30
0.0
 10
97.868334
 20
115.172365
 30
0.0
 10
97.864382
 20
115.143720
 30
0.0
 10
98.988835
 20
114.765688
 30
0.0
 10
100.011809
 20
114.216066
 30
0.0
 10
100.918431
 20
113.513770
 30
0.0
 10
101.693830
 20
112.677715
 30
0.0
 10
102.323141
 20
111.726818
 30
0.0
 10
102.791486
 20
110.679997
 30
0.0
 10
103.084003
 20
109.556168
 30
0.0
 10
103.185815
 20
108.374247
 30
0.0
 10
103.044092
 20
106.967948
 30
0.0
 10
102.637528
 20
105.658115
 30
0.0
 10
101.994188
 20
104.472813
 30
0.0
 10
101.142128
 20
103.440099
 30
0.0
 10
100.109415
 20
102.588039
 30
0.0
 10
98.924113
 20
101.944700
 30
0.0
 10
97.614280
 20
101.538136
 30
0.0
 10
96.207981
 20
101.396413
 30
0.0
 10
94.801766
 20
101.538224
 30
0.0
 10
93.492026
 20
101.944847
 30
0.0
 10
92.306815
 20
102.588220
 30
0.0
 10
91.274192
 20
103.440286
 30
0.0
 10
90.422211
 20
104.472979
 30
0.0
 10
89.778930
 20
105.658245
 30
0.0
 10
89.372406
 20
106.968021
 30
0.0
 10
89.230700
 20
108.374247
 30
0.0
 10
89.332350
 20
109.556329
 30
0.0
 10
89.624758
 20
110.680330
 30
0.0
 10
90.093046
 20
111.727321
 30
0.0
 10
90.722343
 20
112.678384
 30
0.0
 10
91.497774
 20
113.514589
 30
0.0
 10
92.404463
 20
114.217015
 30
0.0
 10
93.427542
 20
114.766733
 30
0.0
 10
94.552129
 20
115.144823
 30
0.0
 10
94.548206
 20
115.173330
 30
0.0
 10
94.544763
 20
115.201897
 30
0.0
 10
94.541828
 20
115.230511
 30
0.0
 10
94.539288
 20
115.259174
 30
0.0
 10
94.537313
 20
115.287870
 30
0.0
 10
94.535902
 20
115.316600
 30
0.0
 10
94.535055
 20
115.345356
 30
0.0
 10
94.534490
 20
115.374129
 30
0.0
 10
94.535055
 20
115.403110
 30
0.0
 10
94.535902
 20
115.432072
 30
0.0
 10
94.537313
 20
115.461008
 30
0.0
 10
94.539288
 20
115.489913
 30
0.0
 10
94.541828
 20
115.518782
 30
0.0
 10
94.544792
 20
115.547602
 30
0.0
 10
94.548235
 20
115.576375
 30
0.0
 10
94.552186
 20
115.605088
 30
0.0
 10
93.427733
 20
115.983119
 30
0.0
 10
92.404760
 20
116.532741
 30
0.0
 10
91.498138
 20
117.235040
 30
0.0
 10
90.722738
 20
118.071095
 30
0.0
 10
90.093430
 20
119.021992
 30
0.0
 10
89.625083
 20
120.068813
 30
0.0
 10
89.332568
 20
121.192642
 30
0.0
 10
89.230756
 20
122.374563
 30
0.0
 10
89.372463
 20
123.780789
 30
0.0
 10
89.778987
 20
125.090566
 30
0.0
 10
90.422267
 20
126.275831
 30
0.0
 10
91.274248
 20
127.308525
 30
0.0
 10
92.306871
 20
128.160590
 30
0.0
 10
93.492083
 20
128.803964
 30
0.0
 10
94.801823
 20
129.210587
 30
0.0
 10
96.208037
 20
129.352398
 30
0.0
 10
96.208009
 20
129.352398
 30
0.0
  0
LWPOLYLINE
  5
107
100
AcDbEntity
  8
Layer_1
 62
1
100
AcDbPolyline
 90
33
 70
1
 10
74.209560
 20
119.858264
 30
0.0
 10
75.112872
 20
119.767140
 30
0.0
 10
75.954210
 20
119.505913
 30
0.0
 10
76.715547
 20
119.092610
 30
0.0
 10
77.378868
 20
118.545251
 30
0.0
 10
77.926142
 20
117.881865
 30
0.0
 10
78.339355
 20
117.120475
 30
0.0
 10
78.600475
 20
116.279105
 30
0.0
 10
78.691489
 20
115.375782
 30
0.0
 10
78.600379
 20
114.472544
 30
0.0
 10
78.339194
 20
113.631268
 30
0.0
 10
77.925953
 20
112.869968
 30
0.0
 10
77.378673
 20
112.206670
 30
0.0
 10
76.715374
 20
111.659390
 30
0.0
 10
75.954074
 20
111.246146
 30
0.0
 10
75.112798
 20
110.984961
 30
0.0
 10
74.209560
 20
110.893851
 30
0.0
 10
73.306237
 20
110.984862
 30
0.0
 10
72.464865
 20
111.245985
 30
0.0
 10
71.703475
 20
111.659195
 30
0.0
 10
71.040089
 20
112.206472
 30
0.0
 10
70.492730
 20
112.869793
 30
0.0
 10
70.079424
 20
113.631133
 30
0.0
 10
69.818199
 20
114.472471
 30
0.0
 10
69.727075
 20
115.375782
 30
0.0
 10
69.818103
 20
116.279181
 30
0.0
 10
70.079266
 20
117.120610
 30
0.0
 10
70.492541
 20
117.882040
 30
0.0
 10
71.039894
 20
118.545448
 30
0.0
 10
71.703300
 20
119.092801
 30
0.0
 10
72.464732
 20
119.506074
 30
0.0
 10
73.306161
 20
119.767236
 30
0.0
 10
74.209560
 20
119.858264
 30
0.0
  0
LWPOLYLINE
  5
108
100
AcDbEntity
  8
Layer_1
 62
1
100
AcDbPolyline
 90
33
 70
1
 10
36.708729
 20
102.547902
 30
0.0
 10
37.046123
 20
102.513922
 30
0.0
 10
37.360375
 20
102.416395
 30
0.0
 10
37.644747
 20
102.262056
 30
0.0
 10
37.892507
 20
102.057640
 30
0.0
 10
38.096927
 20
101.809877
 30
0.0
 10
38.251265
 20
101.525504
 30
0.0
 10
38.348790
 20
101.211252
 30
0.0
 10
38.382770
 20
100.873858
 30
0.0
 10
38.348790
 20
100.536465
 30
0.0
 10
38.251263
 20
100.222216
 30
0.0
 10
38.096924
 20
99.937843
 30
0.0
 10
37.892507
 20
99.690080
 30
0.0
 10
37.644745
 20
99.485664
 30
0.0
 10
37.360372
 20
99.331325
 30
0.0
 10
37.046123
 20
99.233797
 30
0.0
 10
36.708729
 20
99.199818
 30
0.0
 10
36.371420
 20
99.233893
 30
0.0
 10
36.057261
 20
99.331483
 30
0.0
 10
35.772982
 20
99.485853
 30
0.0
 10
35.525306
 20
99.690275
 30
0.0
 10
35.320966
 20
99.938015
 30
0.0
 10
35.166689
 20
100.222348
 30
0.0
 10
35.069204
 20
100.536538
 30
0.0
 10
35.035239
 20
100.873858
 30
0.0
 10
35.069204
 20
101.211179
 30
0.0
 10
35.166689
 20
101.525368
 30
0.0
 10
35.320966
 20
101.809702
 30
0.0
 10
35.525306
 20
102.057445
 30
0.0
 10
35.772979
 20
102.261867
 30
0.0
 10
36.057261
 20
102.416237
 30
0.0
 10
36.371420
 20
102.513826
 30
0.0
 10
36.708729
 20
102.547902
 30
0.0
  0
LWPOLYLINE
  5
109
100
AcDbEntity
  8
Layer_1
 62
1
100
AcDbPolyline
 90
33
 70
1
 10
112.009699
 20
102.547902
 30
0.0
 10
112.347093
 20
102.513922
 30
0.0
 10
112.661344
 20
102.416395
 30
0.0
 10
112.945717
 20
102.262056
 30
0.0
 10
113.193477
 20
102.057640
 30
0.0
 10
113.397896
 20
101.809877
 30
0.0
 10
113.552232
 20
101.525504
 30
0.0
 10
113.649760
 20
101.211252
 30
0.0
 10
113.683740
 20
100.873858
 30
0.0
 10
113.649760
 20
100.536465
 30
0.0
 10
113.552232
 20
100.222216
 30
0.0
 10
113.397894
 20
99.937843
 30
0.0
 10
113.193477
 20
99.690080
 30
0.0
 10
112.945714
 20
99.485664
 30
0.0
 10
112.661342
 20
99.331325
 30
0.0
 10
112.347093
 20
99.233797
 30
0.0
 10
112.009699
 20
99.199818
 30
0.0
 10
111.672390
 20
99.233893
 30
0.0
 10
111.358231
 20
99.331483
 30
0.0
 10
111.073952
 20
99.485853
 30
0.0
 10
110.826276
 20
99.690275
 30
0.0
 10
110.621936
 20
99.938015
 30
0.0
 10
110.467659
 20
100.222348
 30
0.0
 10
110.370174
 20
100.536538
 30
0.0
 10
110.336209
 20
100.873858
 30
0.0
 10
110.370174
 20
101.211179
 30
0.0
 10
110.467659
 20
101.525368
 30
0.0
 10
110.621936
 20
101.809702
 30
0.0
 10
110.826276
 20
102.057445
 30
0.0
 10
111.073949
 20
102.261867
 30
0.0
 10
111.358231
 20
102.416237
 30
0.0
 10
111.672390
 20
102.513826
 30
0.0
 10
112.009699
 20
102.547902
 30
0.0
  0
ENDSEC
  0
SECTION
  2
OBJECTS
  0
DICTIONARY
  5
C
330
0
100
AcDbDictionary
  3
ACAD_GROUP
350
D
  3
ACAD_MLINESTYLE
350
17
  0
DICTIONARY
  5
D
330
C
100
AcDbDictionary
  0
DICTIONARY
  5
1A
330
C
100
AcDbDictionary
  0
DICTIONARY
  5
17
330
C
100
AcDbDictionary
  3
STANDARD
350
18
  0
DICTIONARY
  5
19
330
C
100
AcDbDictionary
  0
ENDSEC
  0
EOF
